ISO-10303-21;
HEADER;
FILE_DESCRIPTION (( 'STEP AP203' ),
    '1' );
FILE_NAME ('BK7-BSC-20-650-900.STEP',
    '2020-12-22T03:18:12',
    ( '' ),
    ( '' ),
    'SwSTEP 2.0',
    'SolidWorks 2020',
    '' );
FILE_SCHEMA (( 'CONFIG_CONTROL_DESIGN' ));
ENDSEC;

DATA;
#1 = ORIENTED_EDGE ( 'NONE', *, *, #16, .T. ) ;
#2 = CARTESIAN_POINT ( 'NONE',  ( -9.999999999999998224, 10.00000000000000355, -10.00000000000000000 ) ) ;
#3 = PRODUCT_RELATED_PRODUCT_CATEGORY ( 'detail', '', ( #83 ) ) ;
#4 = ORIENTED_EDGE ( 'NONE', *, *, #62, .T. ) ;
#5 = CC_DESIGN_APPROVAL ( #57, ( #253 ) ) ;
#6 = ORIENTED_EDGE ( 'NONE', *, *, #16, .F. ) ;
#7 = CARTESIAN_POINT ( 'NONE',  ( -9.999999999999998224, -10.00000000000000000, 10.00000000000000000 ) ) ;
#8 = CARTESIAN_POINT ( 'NONE',  ( 10.00000000000000000, 10.00000000000000000, 10.00000000000000000 ) ) ;
#9 = PERSON_AND_ORGANIZATION ( #320, #123 ) ;
#10 = ORIENTED_EDGE ( 'NONE', *, *, #199, .T. ) ;
#11 = ORIENTED_EDGE ( 'NONE', *, *, #238, .T. ) ;
#12 = VECTOR ( 'NONE', #274, 1000.000000000000000 ) ;
#13 = ORIENTED_EDGE ( 'NONE', *, *, #168, .F. ) ;
#14 = LOCAL_TIME ( 11, 18, 12.00000000000000000, #85 ) ;
#15 = AXIS2_PLACEMENT_3D ( 'NONE', #301, #257, #28 ) ;
#16 = EDGE_CURVE ( 'NONE', #280, #144, #63, .T. ) ;
#17 = CALENDAR_DATE ( 2020, 22, 12 ) ;
#18 = PLANE ( 'NONE',  #97 ) ;
#19 = DIRECTION ( 'NONE',  ( 0.000000000000000000, 0.000000000000000000, 1.000000000000000000 ) ) ;
#20 = VECTOR ( 'NONE', #82, 1000.000000000000000 ) ;
#21 = CARTESIAN_POINT ( 'NONE',  ( -9.999999999999998224, -10.00000000000000000, -10.00000000000000000 ) ) ;
#22 = PERSON_AND_ORGANIZATION ( #320, #123 ) ;
#23 = VERTEX_POINT ( 'NONE', #8 ) ;
#24 = FACE_OUTER_BOUND ( 'NONE', #27, .T. ) ;
#25 = ORIENTED_EDGE ( 'NONE', *, *, #62, .F. ) ;
#26 = DIRECTION ( 'NONE',  ( -0.000000000000000000, 0.000000000000000000, -1.000000000000000000 ) ) ;
#27 = EDGE_LOOP ( 'NONE', ( #240, #25, #13, #10 ) ) ;
#28 = DIRECTION ( 'NONE',  ( 0.7071067811865475727, 0.7071067811865474617, 0.000000000000000000 ) ) ;
#29 = ADVANCED_BREP_SHAPE_REPRESENTATION ( 'BK7-BSC-20-650-900', ( #78, #294, #65 ), #222 ) ;
#30 = ADVANCED_FACE ( 'NONE', ( #112 ), #310, .F. ) ;
#31 = PLANE ( 'NONE',  #203 ) ;
#32 = APPROVAL_PERSON_ORGANIZATION ( #233, #230, #204 ) ;
#33 = AXIS2_PLACEMENT_3D ( 'NONE', #251, #174, #122 ) ;
#34 = EDGE_LOOP ( 'NONE', ( #267, #228, #235 ) ) ;
#35 = PERSON_AND_ORGANIZATION_ROLE ( 'creator' ) ;
#36 = DIRECTION ( 'NONE',  ( -0.7071067811865475727, -0.7071067811865474617, 0.000000000000000000 ) ) ;
#37 = VECTOR ( 'NONE', #315, 1000.000000000000000 ) ;
#38 = VECTOR ( 'NONE', #26, 1000.000000000000000 ) ;
#39 = CARTESIAN_POINT ( 'NONE',  ( 10.00000000000000178, 9.999999999999998224, 10.00000000000000000 ) ) ;
#40 = EDGE_LOOP ( 'NONE', ( #284, #50, #180, #42 ) ) ;
#41 = COORDINATED_UNIVERSAL_TIME_OFFSET ( 8, 0, .AHEAD. ) ;
#42 = ORIENTED_EDGE ( 'NONE', *, *, #86, .T. ) ;
#43 = FACE_OUTER_BOUND ( 'NONE', #211, .T. ) ;
#44 = CARTESIAN_POINT ( 'NONE',  ( -10.00000000000000178, -9.999999999999996447, 10.00000000000000000 ) ) ;
#45 = DIRECTION ( 'NONE',  ( 2.220446049250313081E-16, 1.000000000000000000, 0.000000000000000000 ) ) ;
#46 = ADVANCED_FACE ( 'NONE', ( #215 ), #56, .F. ) ;
#47 = FACE_OUTER_BOUND ( 'NONE', #305, .T. ) ;
#48 = LINE ( 'NONE', #298, #214 ) ;
#49 = APPLICATION_CONTEXT ( 'configuration controlled 3d designs of mechanical parts and assemblies' ) ;
#50 = ORIENTED_EDGE ( 'NONE', *, *, #219, .F. ) ;
#51 = CC_DESIGN_PERSON_AND_ORGANIZATION_ASSIGNMENT ( #103, #80, ( #196 ) ) ;
#52 = EDGE_CURVE ( 'NONE', #129, #144, #106, .T. ) ;
#53 = DIRECTION ( 'NONE',  ( 2.220446049250313081E-16, 1.000000000000000000, 0.000000000000000000 ) ) ;
#54 = CC_DESIGN_PERSON_AND_ORGANIZATION_ASSIGNMENT ( #213, #131, ( #253 ) ) ;
#55 = DIRECTION ( 'NONE',  ( 0.000000000000000000, 0.000000000000000000, 1.000000000000000000 ) ) ;
#56 = PLANE ( 'NONE',  #255 ) ;
#57 = APPROVAL ( #225, 'UNSPECIFIED' ) ;
#58 = VECTOR ( 'NONE', #272, 1000.000000000000000 ) ;
#59 = CALENDAR_DATE ( 2020, 22, 12 ) ;
#60 = CARTESIAN_POINT ( 'NONE',  ( -10.00000000000000178, -9.999999999999996447, 10.00000000000000000 ) ) ;
#61 = DATE_TIME_ROLE ( 'creation_date' ) ;
#62 = EDGE_CURVE ( 'NONE', #108, #146, #182, .T. ) ;
#63 = LINE ( 'NONE', #159, #309 ) ;
#64 = DIRECTION ( 'NONE',  ( 0.000000000000000000, 0.000000000000000000, 1.000000000000000000 ) ) ;
#65 = AXIS2_PLACEMENT_3D ( 'NONE', #244, #19, #165 ) ;
#66 = DIRECTION ( 'NONE',  ( -1.000000000000000000, 0.000000000000000000, 0.000000000000000000 ) ) ;
#67 = ADVANCED_FACE ( 'NONE', ( #288 ), #31, .T. ) ;
#68 = UNCERTAINTY_MEASURE_WITH_UNIT (LENGTH_MEASURE( 1.000000000000000082E-05 ), #162, 'distance_accuracy_value', 'NONE');
#69 = CARTESIAN_POINT ( 'NONE',  ( -9.999999999999998224, -10.00000000000000000, -10.00000000000000000 ) ) ;
#70 = DIRECTION ( 'NONE',  ( -0.000000000000000000, -0.000000000000000000, -1.000000000000000000 ) ) ;
#71 = ORIENTED_EDGE ( 'NONE', *, *, #110, .F. ) ;
#72 = DIRECTION ( 'NONE',  ( 1.000000000000000000, -2.220446049250313081E-16, 0.000000000000000000 ) ) ;
#73 = VECTOR ( 'NONE', #172, 1000.000000000000000 ) ;
#74 = FACE_OUTER_BOUND ( 'NONE', #287, .T. ) ;
#75 = CARTESIAN_POINT ( 'NONE',  ( 10.00000000000000178, 9.999999999999998224, 10.00000000000000000 ) ) ;
#76 = CARTESIAN_POINT ( 'NONE',  ( -9.999999999999998224, -10.00000000000000000, 10.00000000000000000 ) ) ;
#77 = PRODUCT_DEFINITION_SHAPE ( 'NONE', 'NONE',  #253 ) ;
#78 = MANIFOLD_SOLID_BREP ( 'Í¹Ì¨-À', #132 ) ;
#79 = CC_DESIGN_APPROVAL ( #230, ( #196 ) ) ;
#80 = PERSON_AND_ORGANIZATION_ROLE ( 'classification_officer' ) ;
#81 = PLANE ( 'NONE',  #111 ) ;
#82 = DIRECTION ( 'NONE',  ( -0.000000000000000000, -0.000000000000000000, -1.000000000000000000 ) ) ;
#83 = PRODUCT ( 'BK7-BSC-20-650-900', 'BK7-BSC-20-650-900', '', ( #140 ) ) ;
#84 = ADVANCED_FACE ( 'NONE', ( #307 ), #81, .F. ) ;
#85 = COORDINATED_UNIVERSAL_TIME_OFFSET ( 8, 0, .AHEAD. ) ;
#86 = EDGE_CURVE ( 'NONE', #23, #280, #153, .T. ) ;
#87 = CARTESIAN_POINT ( 'NONE',  ( 10.00000000000000178, 9.999999999999998224, 10.00000000000000000 ) ) ;
#88 = ADVANCED_FACE ( 'NONE', ( #43 ), #114, .F. ) ;
#89 = DIRECTION ( 'NONE',  ( -0.000000000000000000, 0.000000000000000000, -1.000000000000000000 ) ) ;
#90 = LINE ( 'NONE', #297, #58 ) ;
#91 = CC_DESIGN_DATE_AND_TIME_ASSIGNMENT ( #286, #61, ( #253 ) ) ;
#92 = DIRECTION ( 'NONE',  ( -0.000000000000000000, 0.000000000000000000, 1.000000000000000000 ) ) ;
#93 = APPLICATION_PROTOCOL_DEFINITION ( 'international standard', 'config_control_design', 1994, #49 ) ;
#94 = VERTEX_POINT ( 'NONE', #220 ) ;
#95 = CLOSED_SHELL ( 'NONE', ( #266, #84, #209, #67, #30 ) ) ;
#96 = VERTEX_POINT ( 'NONE', #2 ) ;
#97 = AXIS2_PLACEMENT_3D ( 'NONE', #224, #92, #295 ) ;
#98 = CARTESIAN_POINT ( 'NONE',  ( -9.999999999999998224, 10.00000000000000355, 10.00000000000000000 ) ) ;
#99 = ORIENTED_EDGE ( 'NONE', *, *, #52, .F. ) ;
#100 = DATE_AND_TIME ( #151, #170 ) ;
#101 = APPROVAL_STATUS ( 'not_yet_approved' ) ;
#102 = APPLICATION_CONTEXT ( 'configuration controlled 3d designs of mechanical parts and assemblies' ) ;
#103 = PERSON_AND_ORGANIZATION ( #320, #123 ) ;
#104 = DIRECTION ( 'NONE',  ( 2.220446049250313081E-16, 1.000000000000000000, 0.000000000000000000 ) ) ;
#105 = PERSON_AND_ORGANIZATION_ROLE ( 'design_supplier' ) ;
#106 = LINE ( 'NONE', #60, #37 ) ;
#107 = EDGE_CURVE ( 'NONE', #212, #23, #194, .T. ) ;
#108 = VERTEX_POINT ( 'NONE', #250 ) ;
#109 = CC_DESIGN_SECURITY_CLASSIFICATION ( #196, ( #313 ) ) ;
#110 = EDGE_CURVE ( 'NONE', #94, #252, #90, .T. ) ;
#111 = AXIS2_PLACEMENT_3D ( 'NONE', #179, #281, #55 ) ;
#112 = FACE_OUTER_BOUND ( 'NONE', #118, .T. ) ;
#113 = DATE_AND_TIME ( #17, #143 ) ;
#114 = PLANE ( 'NONE',  #176 ) ;
#115 = LINE ( 'NONE', #241, #135 ) ;
#116 = LOCAL_TIME ( 11, 18, 12.00000000000000000, #306 ) ;
#117 = CARTESIAN_POINT ( 'NONE',  ( -10.00000000000000178, -9.999999999999996447, -10.00000000000000000 ) ) ;
#118 = EDGE_LOOP ( 'NONE', ( #1, #195, #125 ) ) ;
#119 = CARTESIAN_POINT ( 'NONE',  ( 10.00000000000000000, 10.00000000000000000, -10.00000000000000000 ) ) ;
#120 = EDGE_CURVE ( 'NONE', #269, #146, #189, .T. ) ;
#121 = DIRECTION ( 'NONE',  ( -0.000000000000000000, 1.000000000000000000, -0.000000000000000000 ) ) ;
#122 = DIRECTION ( 'NONE',  ( 0.000000000000000000, 0.000000000000000000, 1.000000000000000000 ) ) ;
#123 = ORGANIZATION ( 'UNSPECIFIED', 'UNSPECIFIED', '' ) ;
#124 = CARTESIAN_POINT ( 'NONE',  ( -10.00000000000000178, -9.999999999999996447, -10.00000000000000000 ) ) ;
#125 = ORIENTED_EDGE ( 'NONE', *, *, #156, .T. ) ;
#126 = PLANE ( 'NONE',  #15 ) ;
#127 = DIRECTION ( 'NONE',  ( 0.000000000000000000, -0.000000000000000000, 1.000000000000000000 ) ) ;
#128 = CARTESIAN_POINT ( 'NONE',  ( 10.00000000000000000, 10.00000000000000000, 10.00000000000000000 ) ) ;
#129 = VERTEX_POINT ( 'NONE', #44 ) ;
#130 = EDGE_CURVE ( 'NONE', #146, #252, #292, .T. ) ;
#131 = PERSON_AND_ORGANIZATION_ROLE ( 'creator' ) ;
#132 = CLOSED_SHELL ( 'NONE', ( #142, #259, #88, #145, #46 ) ) ;
#133 = ORIENTED_EDGE ( 'NONE', *, *, #130, .T. ) ;
#134 = APPROVAL_ROLE ( '' ) ;
#135 = VECTOR ( 'NONE', #239, 1000.000000000000000 ) ;
#136 = CARTESIAN_POINT ( 'NONE',  ( 0.000000000000000000, 0.000000000000000000, -10.00000000000000000 ) ) ;
#137 = CC_DESIGN_PERSON_AND_ORGANIZATION_ASSIGNMENT ( #9, #105, ( #313 ) ) ;
#138 = CARTESIAN_POINT ( 'NONE',  ( 10.00000000000000000, 10.00000000000000000, -10.00000000000000000 ) ) ;
#139 = DIRECTION ( 'NONE',  ( 1.000000000000000000, 0.000000000000000000, 0.000000000000000000 ) ) ;
#140 = MECHANICAL_CONTEXT ( 'NONE', #49, 'mechanical' ) ;
#141 = CARTESIAN_POINT ( 'NONE',  ( 10.00000000000000178, 9.999999999999998224, -10.00000000000000000 ) ) ;
#142 = ADVANCED_FACE ( 'NONE', ( #24 ), #246, .F. ) ;
#143 = LOCAL_TIME ( 11, 18, 12.00000000000000000, #41 ) ;
#144 = VERTEX_POINT ( 'NONE', #117 ) ;
#145 = ADVANCED_FACE ( 'NONE', ( #47 ), #18, .T. ) ;
#146 = VERTEX_POINT ( 'NONE', #69 ) ;
#147 = DIRECTION ( 'NONE',  ( 0.000000000000000000, -0.000000000000000000, 1.000000000000000000 ) ) ;
#148 = PERSON_AND_ORGANIZATION ( #320, #123 ) ;
#149 = LOCAL_TIME ( 11, 18, 12.00000000000000000, #192 ) ;
#150 = FACE_OUTER_BOUND ( 'NONE', #184, .T. ) ;
#151 = CALENDAR_DATE ( 2020, 22, 12 ) ;
#152 = CARTESIAN_POINT ( 'NONE',  ( 0.000000000000000000, 0.000000000000000000, -10.00000000000000000 ) ) ;
#153 = LINE ( 'NONE', #128, #314 ) ;
#154 = AXIS2_PLACEMENT_3D ( 'NONE', #164, #273, #319 ) ;
#155 = ORIENTED_EDGE ( 'NONE', *, *, #303, .T. ) ;
#156 = EDGE_CURVE ( 'NONE', #96, #280, #166, .T. ) ;
#157 = CC_DESIGN_DATE_AND_TIME_ASSIGNMENT ( #100, #279, ( #196 ) ) ;
#158 = DATE_AND_TIME ( #59, #149 ) ;
#159 = CARTESIAN_POINT ( 'NONE',  ( 10.00000000000000000, 10.00000000000000000, -10.00000000000000000 ) ) ;
#160 = PERSON_AND_ORGANIZATION ( #320, #123 ) ;
#161 = CARTESIAN_POINT ( 'NONE',  ( 0.000000000000000000, 0.000000000000000000, 10.00000000000000000 ) ) ;
#162 =( LENGTH_UNIT ( ) NAMED_UNIT ( * ) SI_UNIT ( .MILLI., .METRE. ) );
#163 = APPROVAL_PERSON_ORGANIZATION ( #22, #57, #321 ) ;
#164 = CARTESIAN_POINT ( 'NONE',  ( 10.00000000000000178, 9.999999999999998224, 10.00000000000000000 ) ) ;
#165 = DIRECTION ( 'NONE',  ( 1.000000000000000000, 0.000000000000000000, 0.000000000000000000 ) ) ;
#166 = LINE ( 'NONE', #119, #248 ) ;
#167 = CARTESIAN_POINT ( 'NONE',  ( -9.999999999999998224, -10.00000000000000000, 10.00000000000000000 ) ) ;
#168 = EDGE_CURVE ( 'NONE', #302, #108, #171, .T. ) ;
#169 = ORIENTED_EDGE ( 'NONE', *, *, #52, .T. ) ;
#170 = LOCAL_TIME ( 11, 18, 12.00000000000000000, #283 ) ;
#171 = LINE ( 'NONE', #243, #12 ) ;
#172 = DIRECTION ( 'NONE',  ( 1.000000000000000000, 0.000000000000000000, 0.000000000000000000 ) ) ;
#173 = FACE_OUTER_BOUND ( 'NONE', #40, .T. ) ;
#174 = DIRECTION ( 'NONE',  ( -2.220446049250313081E-16, -1.000000000000000000, 0.000000000000000000 ) ) ;
#175 = VECTOR ( 'NONE', #218, 1000.000000000000000 ) ;
#176 = AXIS2_PLACEMENT_3D ( 'NONE', #187, #66, #64 ) ;
#177 = ORIENTED_EDGE ( 'NONE', *, *, #237, .T. ) ;
#178 = APPROVAL_DATE_TIME ( #304, #230 ) ;
#179 = CARTESIAN_POINT ( 'NONE',  ( -10.00000000000000178, -9.999999999999996447, 10.00000000000000000 ) ) ;
#180 = ORIENTED_EDGE ( 'NONE', *, *, #107, .T. ) ;
#181 = APPROVAL_PERSON_ORGANIZATION ( #160, #312, #134 ) ;
#182 = LINE ( 'NONE', #7, #20 ) ;
#183 = CALENDAR_DATE ( 2020, 22, 12 ) ;
#184 = EDGE_LOOP ( 'NONE', ( #133, #71, #275, #4 ) ) ;
#185 = ORIENTED_EDGE ( 'NONE', *, *, #199, .F. ) ;
#186 = CARTESIAN_POINT ( 'NONE',  ( -10.00000000000000178, -9.999999999999996447, 10.00000000000000000 ) ) ;
#187 = CARTESIAN_POINT ( 'NONE',  ( 10.00000000000000178, 9.999999999999998224, 10.00000000000000000 ) ) ;
#188 = VECTOR ( 'NONE', #191, 1000.000000000000000 ) ;
#189 = LINE ( 'NONE', #141, #188 ) ;
#190 = PERSON_AND_ORGANIZATION ( #320, #123 ) ;
#191 = DIRECTION ( 'NONE',  ( -0.7071067811865475727, -0.7071067811865474617, 0.000000000000000000 ) ) ;
#192 = COORDINATED_UNIVERSAL_TIME_OFFSET ( 8, 0, .AHEAD. ) ;
#193 = EDGE_LOOP ( 'NONE', ( #201, #296, #236 ) ) ;
#194 = LINE ( 'NONE', #289, #223 ) ;
#195 = ORIENTED_EDGE ( 'NONE', *, *, #270, .T. ) ;
#196 = SECURITY_CLASSIFICATION ( '', '', #260 ) ;
#197 = VECTOR ( 'NONE', #45, 1000.000000000000000 ) ;
#198 = PLANE ( 'NONE',  #299 ) ;
#199 = EDGE_CURVE ( 'NONE', #302, #269, #217, .T. ) ;
#200 = ORIENTED_EDGE ( 'NONE', *, *, #290, .F. ) ;
#201 = ORIENTED_EDGE ( 'NONE', *, *, #120, .F. ) ;
#202 = LINE ( 'NONE', #232, #38 ) ;
#203 = AXIS2_PLACEMENT_3D ( 'NONE', #161, #127, #104 ) ;
#204 = APPROVAL_ROLE ( '' ) ;
#205 = VECTOR ( 'NONE', #318, 1000.000000000000000 ) ;
#206 = ORIENTED_EDGE ( 'NONE', *, *, #86, .F. ) ;
#207 = DESIGN_CONTEXT ( 'detailed design', #102, 'design' ) ;
#208 = DIRECTION ( 'NONE',  ( -0.000000000000000000, 0.000000000000000000, 1.000000000000000000 ) ) ;
#209 = ADVANCED_FACE ( 'NONE', ( #173 ), #254, .F. ) ;
#210 = AXIS2_PLACEMENT_3D ( 'NONE', #136, #311, #53 ) ;
#211 = EDGE_LOOP ( 'NONE', ( #177, #185, #200, #249 ) ) ;
#212 = VERTEX_POINT ( 'NONE', #98 ) ;
#213 = PERSON_AND_ORGANIZATION ( #320, #123 ) ;
#214 = VECTOR ( 'NONE', #121, 1000.000000000000000 ) ;
#215 = FACE_OUTER_BOUND ( 'NONE', #193, .T. ) ;
#216 = LINE ( 'NONE', #87, #205 ) ;
#217 = LINE ( 'NONE', #75, #242 ) ;
#218 = DIRECTION ( 'NONE',  ( 2.220446049250313081E-16, 1.000000000000000000, 0.000000000000000000 ) ) ;
#219 = EDGE_CURVE ( 'NONE', #212, #96, #202, .T. ) ;
#220 = CARTESIAN_POINT ( 'NONE',  ( 10.00000000000000178, -10.00000000000000000, 10.00000000000000000 ) ) ;
#221 = PERSON_AND_ORGANIZATION_ROLE ( 'design_owner' ) ;
#222 =( GEOMETRIC_REPRESENTATION_CONTEXT ( 3 ) GLOBAL_UNCERTAINTY_ASSIGNED_CONTEXT ( ( #68 ) ) GLOBAL_UNIT_ASSIGNED_CONTEXT ( ( #162, #291, #293 ) ) REPRESENTATION_CONTEXT ( 'NONE', 'WORKASPACE' ) );
#223 = VECTOR ( 'NONE', #317, 1000.000000000000000 ) ;
#224 = CARTESIAN_POINT ( 'NONE',  ( 0.000000000000000000, 0.000000000000000000, 10.00000000000000000 ) ) ;
#225 = APPROVAL_STATUS ( 'not_yet_approved' ) ;
#226 = ORIENTED_EDGE ( 'NONE', *, *, #308, .T. ) ;
#227 = CARTESIAN_POINT ( 'NONE',  ( 10.00000000000000178, 9.999999999999998224, -10.00000000000000000 ) ) ;
#228 = ORIENTED_EDGE ( 'NONE', *, *, #107, .F. ) ;
#229 = DIRECTION ( 'NONE',  ( 0.000000000000000000, 1.000000000000000000, 0.000000000000000000 ) ) ;
#230 = APPROVAL ( #101, 'UNSPECIFIED' ) ;
#231 = EDGE_LOOP ( 'NONE', ( #264, #99, #155, #263 ) ) ;
#232 = CARTESIAN_POINT ( 'NONE',  ( -9.999999999999998224, 10.00000000000000355, 10.00000000000000000 ) ) ;
#233 = PERSON_AND_ORGANIZATION ( #320, #123 ) ;
#234 = LINE ( 'NONE', #124, #197 ) ;
#235 = ORIENTED_EDGE ( 'NONE', *, *, #303, .F. ) ;
#236 = ORIENTED_EDGE ( 'NONE', *, *, #130, .F. ) ;
#237 = EDGE_CURVE ( 'NONE', #252, #269, #48, .T. ) ;
#238 = EDGE_CURVE ( 'NONE', #108, #94, #276, .T. ) ;
#239 = DIRECTION ( 'NONE',  ( -0.7071067811865475727, -0.7071067811865474617, 0.000000000000000000 ) ) ;
#240 = ORIENTED_EDGE ( 'NONE', *, *, #120, .T. ) ;
#241 = CARTESIAN_POINT ( 'NONE',  ( 10.00000000000000000, 10.00000000000000000, 10.00000000000000000 ) ) ;
#242 = VECTOR ( 'NONE', #70, 1000.000000000000000 ) ;
#243 = CARTESIAN_POINT ( 'NONE',  ( 10.00000000000000178, 9.999999999999998224, 10.00000000000000000 ) ) ;
#244 = CARTESIAN_POINT ( 'NONE',  ( 0.000000000000000000, 0.000000000000000000, 0.000000000000000000 ) ) ;
#245 = CC_DESIGN_PERSON_AND_ORGANIZATION_ASSIGNMENT ( #190, #221, ( #83 ) ) ;
#246 = PLANE ( 'NONE',  #154 ) ;
#247 = APPLICATION_PROTOCOL_DEFINITION ( 'international standard', 'config_control_design', 1994, #102 ) ;
#248 = VECTOR ( 'NONE', #72, 1000.000000000000000 ) ;
#249 = ORIENTED_EDGE ( 'NONE', *, *, #110, .T. ) ;
#250 = CARTESIAN_POINT ( 'NONE',  ( -9.999999999999998224, -10.00000000000000000, 10.00000000000000000 ) ) ;
#251 = CARTESIAN_POINT ( 'NONE',  ( 10.00000000000000000, 10.00000000000000000, 10.00000000000000000 ) ) ;
#252 = VERTEX_POINT ( 'NONE', #277 ) ;
#253 = PRODUCT_DEFINITION ( 'UNKNOWN', '', #313, #207 ) ;
#254 = PLANE ( 'NONE',  #33 ) ;
#255 = AXIS2_PLACEMENT_3D ( 'NONE', #152, #208, #262 ) ;
#256 = ORIENTED_EDGE ( 'NONE', *, *, #168, .T. ) ;
#257 = DIRECTION ( 'NONE',  ( -0.7071067811865474617, 0.7071067811865475727, 0.000000000000000000 ) ) ;
#258 = CC_DESIGN_APPROVAL ( #312, ( #313 ) ) ;
#259 = ADVANCED_FACE ( 'NONE', ( #150 ), #198, .F. ) ;
#260 = SECURITY_CLASSIFICATION_LEVEL ( 'unclassified' ) ;
#261 = CALENDAR_DATE ( 2020, 22, 12 ) ;
#262 = DIRECTION ( 'NONE',  ( 1.000000000000000000, 0.000000000000000000, 0.000000000000000000 ) ) ;
#263 = ORIENTED_EDGE ( 'NONE', *, *, #219, .T. ) ;
#264 = ORIENTED_EDGE ( 'NONE', *, *, #270, .F. ) ;
#265 = APPROVAL_DATE_TIME ( #158, #57 ) ;
#266 = ADVANCED_FACE ( 'NONE', ( #74 ), #126, .F. ) ;
#267 = ORIENTED_EDGE ( 'NONE', *, *, #308, .F. ) ;
#268 = APPROVAL_STATUS ( 'not_yet_approved' ) ;
#269 = VERTEX_POINT ( 'NONE', #227 ) ;
#270 = EDGE_CURVE ( 'NONE', #144, #96, #234, .T. ) ;
#271 = LINE ( 'NONE', #186, #175 ) ;
#272 = DIRECTION ( 'NONE',  ( -0.000000000000000000, -0.000000000000000000, -1.000000000000000000 ) ) ;
#273 = DIRECTION ( 'NONE',  ( 0.7071067811865474617, -0.7071067811865475727, 0.000000000000000000 ) ) ;
#274 = DIRECTION ( 'NONE',  ( -0.7071067811865475727, -0.7071067811865474617, 0.000000000000000000 ) ) ;
#275 = ORIENTED_EDGE ( 'NONE', *, *, #238, .F. ) ;
#276 = LINE ( 'NONE', #167, #73 ) ;
#277 = CARTESIAN_POINT ( 'NONE',  ( 10.00000000000000178, -10.00000000000000000, -10.00000000000000000 ) ) ;
#278 = SHAPE_DEFINITION_REPRESENTATION ( #77, #29 ) ;
#279 = DATE_TIME_ROLE ( 'classification_date' ) ;
#280 = VERTEX_POINT ( 'NONE', #138 ) ;
#281 = DIRECTION ( 'NONE',  ( 1.000000000000000000, -2.220446049250313081E-16, 0.000000000000000000 ) ) ;
#282 = CC_DESIGN_PERSON_AND_ORGANIZATION_ASSIGNMENT ( #148, #35, ( #313 ) ) ;
#283 = COORDINATED_UNIVERSAL_TIME_OFFSET ( 8, 0, .AHEAD. ) ;
#284 = ORIENTED_EDGE ( 'NONE', *, *, #156, .F. ) ;
#285 = VECTOR ( 'NONE', #139, 1000.000000000000000 ) ;
#286 = DATE_AND_TIME ( #183, #14 ) ;
#287 = EDGE_LOOP ( 'NONE', ( #6, #206, #226, #169 ) ) ;
#288 = FACE_OUTER_BOUND ( 'NONE', #34, .T. ) ;
#289 = CARTESIAN_POINT ( 'NONE',  ( 10.00000000000000000, 10.00000000000000000, 10.00000000000000000 ) ) ;
#290 = EDGE_CURVE ( 'NONE', #94, #302, #216, .T. ) ;
#291 =( NAMED_UNIT ( * ) PLANE_ANGLE_UNIT ( ) SI_UNIT ( $, .RADIAN. ) );
#292 = LINE ( 'NONE', #21, #285 ) ;
#293 =( NAMED_UNIT ( * ) SI_UNIT ( $, .STERADIAN. ) SOLID_ANGLE_UNIT ( ) );
#294 = MANIFOLD_SOLID_BREP ( '¾µÏ', #95 ) ;
#295 = DIRECTION ( 'NONE',  ( 1.000000000000000000, 0.000000000000000000, 0.000000000000000000 ) ) ;
#296 = ORIENTED_EDGE ( 'NONE', *, *, #237, .F. ) ;
#297 = CARTESIAN_POINT ( 'NONE',  ( 10.00000000000000178, -10.00000000000000000, 10.00000000000000000 ) ) ;
#298 = CARTESIAN_POINT ( 'NONE',  ( 10.00000000000000178, 9.999999999999998224, -10.00000000000000000 ) ) ;
#299 = AXIS2_PLACEMENT_3D ( 'NONE', #76, #229, #147 ) ;
#300 = ORIENTED_EDGE ( 'NONE', *, *, #290, .T. ) ;
#301 = CARTESIAN_POINT ( 'NONE',  ( 10.00000000000000000, 10.00000000000000000, 10.00000000000000000 ) ) ;
#302 = VERTEX_POINT ( 'NONE', #39 ) ;
#303 = EDGE_CURVE ( 'NONE', #129, #212, #271, .T. ) ;
#304 = DATE_AND_TIME ( #261, #116 ) ;
#305 = EDGE_LOOP ( 'NONE', ( #256, #11, #300 ) ) ;
#306 = COORDINATED_UNIVERSAL_TIME_OFFSET ( 8, 0, .AHEAD. ) ;
#307 = FACE_OUTER_BOUND ( 'NONE', #231, .T. ) ;
#308 = EDGE_CURVE ( 'NONE', #23, #129, #115, .T. ) ;
#309 = VECTOR ( 'NONE', #36, 1000.000000000000000 ) ;
#310 = PLANE ( 'NONE',  #210 ) ;
#311 = DIRECTION ( 'NONE',  ( 0.000000000000000000, -0.000000000000000000, 1.000000000000000000 ) ) ;
#312 = APPROVAL ( #268, 'UNSPECIFIED' ) ;
#313 = PRODUCT_DEFINITION_FORMATION_WITH_SPECIFIED_SOURCE ( 'ANY', '', #83, .NOT_KNOWN. ) ;
#314 = VECTOR ( 'NONE', #89, 1000.000000000000000 ) ;
#315 = DIRECTION ( 'NONE',  ( -0.000000000000000000, 0.000000000000000000, -1.000000000000000000 ) ) ;
#316 = APPROVAL_DATE_TIME ( #113, #312 ) ;
#317 = DIRECTION ( 'NONE',  ( 1.000000000000000000, -2.220446049250313081E-16, 0.000000000000000000 ) ) ;
#318 = DIRECTION ( 'NONE',  ( -0.000000000000000000, 1.000000000000000000, -0.000000000000000000 ) ) ;
#319 = DIRECTION ( 'NONE',  ( 0.7071067811865475727, 0.7071067811865474617, 0.000000000000000000 ) ) ;
#320 = PERSON ( 'UNSPECIFIED', 'UNSPECIFIED', 'UNSPECIFIED', ('UNSPECIFIED'), ('UNSPECIFIED'), ('UNSPECIFIED') ) ;
#321 = APPROVAL_ROLE ( '' ) ;
ENDSEC;
END-ISO-10303-21;
